ISO-10303-21;
HEADER;
/* Generated by software containing ST-Developer
 * from STEP Tools, Inc. (www.steptools.com) 
 */

FILE_DESCRIPTION(
/* description */ ('Anschlagpuffer 20x20'),
/* implementation_level */ '2;1');

FILE_NAME(
/* name */ 
'T:\\Produktinformationen\\MT\\B45\\3D-Files B45\\Anschlagpuffer\\4025
10462 Anschlagpuffer 20x20.stp',
/* time_stamp */ '2019-10-23T09:56:44+02:00',
/* author */ ('wheldmann'),
/* organization */ (''),
/* preprocessor_version */ 'ST-DEVELOPER v17.2',
/* originating_system */ 'Autodesk Inventor 2019',
/* authorisation */ '');

FILE_SCHEMA (('AUTOMOTIVE_DESIGN { 1 0 10303 214 3 1 1 }'));
ENDSEC;

DATA;
#10=MECHANICAL_DESIGN_GEOMETRIC_PRESENTATION_REPRESENTATION('',(#121,#122,
#123,#124,#125,#126,#127,#128,#129),#266);
#11=SHAPE_REPRESENTATION_RELATIONSHIP('SRR','None',#273,#12);
#12=ADVANCED_BREP_SHAPE_REPRESENTATION('',(#13),#265);
#13=MANIFOLD_SOLID_BREP('Volumenk\X\F6rper2',#138);
#14=CONICAL_SURFACE('',#171,2.5,0.785398163397448);
#15=TOROIDAL_SURFACE('',#165,3.5,0.5);
#16=FACE_BOUND('',#33,.T.);
#17=FACE_BOUND('',#38,.T.);
#18=PLANE('',#162);
#19=PLANE('',#163);
#20=PLANE('',#177);
#21=PLANE('',#178);
#22=FACE_OUTER_BOUND('',#30,.T.);
#23=FACE_OUTER_BOUND('',#31,.T.);
#24=FACE_OUTER_BOUND('',#32,.T.);
#25=FACE_OUTER_BOUND('',#34,.T.);
#26=FACE_OUTER_BOUND('',#35,.T.);
#27=FACE_OUTER_BOUND('',#36,.T.);
#28=FACE_OUTER_BOUND('',#37,.T.);
#29=FACE_OUTER_BOUND('',#39,.T.);
#30=EDGE_LOOP('',(#87,#88,#89,#90,#91));
#31=EDGE_LOOP('',(#92));
#32=EDGE_LOOP('',(#93,#94));
#33=EDGE_LOOP('',(#95));
#34=EDGE_LOOP('',(#96,#97,#98,#99,#100,#101));
#35=EDGE_LOOP('',(#102,#103,#104,#105,#106,#107));
#36=EDGE_LOOP('',(#108,#109,#110,#111,#112,#113));
#37=EDGE_LOOP('',(#114));
#38=EDGE_LOOP('',(#115,#116));
#39=EDGE_LOOP('',(#117,#118));
#40=LINE('',#233,#43);
#41=LINE('',#255,#44);
#42=LINE('',#260,#45);
#43=VECTOR('',#187,10.);
#44=VECTOR('',#214,2.5);
#45=VECTOR('',#221,3.);
#46=CIRCLE('',#159,10.);
#47=CIRCLE('',#160,10.);
#48=CIRCLE('',#161,10.);
#49=CIRCLE('',#164,8.25);
#50=CIRCLE('',#166,3.);
#51=CIRCLE('',#167,3.);
#52=CIRCLE('',#168,0.5);
#53=CIRCLE('',#169,3.5);
#54=CIRCLE('',#170,3.5);
#55=CIRCLE('',#172,3.);
#56=CIRCLE('',#173,3.);
#57=CIRCLE('',#174,2.5);
#58=CIRCLE('',#175,2.5);
#59=VERTEX_POINT('',#228);
#60=VERTEX_POINT('',#229);
#61=VERTEX_POINT('',#232);
#62=VERTEX_POINT('',#237);
#63=VERTEX_POINT('',#240);
#64=VERTEX_POINT('',#241);
#65=VERTEX_POINT('',#244);
#66=VERTEX_POINT('',#246);
#67=VERTEX_POINT('',#250);
#68=VERTEX_POINT('',#251);
#69=VERTEX_POINT('',#254);
#70=VERTEX_POINT('',#256);
#71=EDGE_CURVE('',#59,#60,#46,.T.);
#72=EDGE_CURVE('',#60,#59,#47,.T.);
#73=EDGE_CURVE('',#60,#61,#40,.T.);
#74=EDGE_CURVE('',#61,#61,#48,.T.);
#75=EDGE_CURVE('',#62,#62,#49,.T.);
#76=EDGE_CURVE('',#63,#64,#50,.T.);
#77=EDGE_CURVE('',#64,#63,#51,.T.);
#78=EDGE_CURVE('',#64,#65,#52,.T.);
#79=EDGE_CURVE('',#66,#65,#53,.T.);
#80=EDGE_CURVE('',#65,#66,#54,.T.);
#81=EDGE_CURVE('',#67,#68,#55,.T.);
#82=EDGE_CURVE('',#68,#67,#56,.T.);
#83=EDGE_CURVE('',#68,#69,#41,.T.);
#84=EDGE_CURVE('',#70,#69,#57,.T.);
#85=EDGE_CURVE('',#69,#70,#58,.T.);
#86=EDGE_CURVE('',#63,#68,#42,.T.);
#87=ORIENTED_EDGE('',*,*,#71,.F.);
#88=ORIENTED_EDGE('',*,*,#72,.F.);
#89=ORIENTED_EDGE('',*,*,#73,.T.);
#90=ORIENTED_EDGE('',*,*,#74,.T.);
#91=ORIENTED_EDGE('',*,*,#73,.F.);
#92=ORIENTED_EDGE('',*,*,#74,.F.);
#93=ORIENTED_EDGE('',*,*,#71,.T.);
#94=ORIENTED_EDGE('',*,*,#72,.T.);
#95=ORIENTED_EDGE('',*,*,#75,.F.);
#96=ORIENTED_EDGE('',*,*,#76,.F.);
#97=ORIENTED_EDGE('',*,*,#77,.F.);
#98=ORIENTED_EDGE('',*,*,#78,.T.);
#99=ORIENTED_EDGE('',*,*,#79,.F.);
#100=ORIENTED_EDGE('',*,*,#80,.F.);
#101=ORIENTED_EDGE('',*,*,#78,.F.);
#102=ORIENTED_EDGE('',*,*,#81,.F.);
#103=ORIENTED_EDGE('',*,*,#82,.F.);
#104=ORIENTED_EDGE('',*,*,#83,.T.);
#105=ORIENTED_EDGE('',*,*,#84,.F.);
#106=ORIENTED_EDGE('',*,*,#85,.F.);
#107=ORIENTED_EDGE('',*,*,#83,.F.);
#108=ORIENTED_EDGE('',*,*,#76,.T.);
#109=ORIENTED_EDGE('',*,*,#77,.T.);
#110=ORIENTED_EDGE('',*,*,#86,.T.);
#111=ORIENTED_EDGE('',*,*,#82,.T.);
#112=ORIENTED_EDGE('',*,*,#81,.T.);
#113=ORIENTED_EDGE('',*,*,#86,.F.);
#114=ORIENTED_EDGE('',*,*,#75,.T.);
#115=ORIENTED_EDGE('',*,*,#79,.T.);
#116=ORIENTED_EDGE('',*,*,#80,.T.);
#117=ORIENTED_EDGE('',*,*,#84,.T.);
#118=ORIENTED_EDGE('',*,*,#85,.T.);
#119=CYLINDRICAL_SURFACE('',#158,10.);
#120=CYLINDRICAL_SURFACE('',#176,3.);
#121=STYLED_ITEM('',(#283),#130);
#122=STYLED_ITEM('',(#283),#131);
#123=STYLED_ITEM('',(#283),#132);
#124=STYLED_ITEM('',(#284),#133);
#125=STYLED_ITEM('',(#284),#134);
#126=STYLED_ITEM('',(#284),#135);
#127=STYLED_ITEM('',(#284),#136);
#128=STYLED_ITEM('',(#284),#137);
#129=STYLED_ITEM('',(#282),#13);
#130=ADVANCED_FACE('',(#22),#119,.T.);
#131=ADVANCED_FACE('',(#23),#18,.T.);
#132=ADVANCED_FACE('',(#24,#16),#19,.T.);
#133=ADVANCED_FACE('',(#25),#15,.F.);
#134=ADVANCED_FACE('',(#26),#14,.T.);
#135=ADVANCED_FACE('',(#27),#120,.T.);
#136=ADVANCED_FACE('',(#28,#17),#20,.T.);
#137=ADVANCED_FACE('',(#29),#21,.T.);
#138=CLOSED_SHELL('',(#130,#131,#132,#133,#134,#135,#136,#137));
#139=DERIVED_UNIT_ELEMENT(#141,1.);
#140=DERIVED_UNIT_ELEMENT(#268,3.);
#141=(
MASS_UNIT()
NAMED_UNIT(*)
SI_UNIT($,.GRAM.)
);
#142=DERIVED_UNIT((#139,#140));
#143=MEASURE_REPRESENTATION_ITEM('density measure',
POSITIVE_RATIO_MEASURE(1.),#142);
#144=PROPERTY_DEFINITION_REPRESENTATION(#149,#146);
#145=PROPERTY_DEFINITION_REPRESENTATION(#150,#147);
#146=REPRESENTATION('material name',(#148),#265);
#147=REPRESENTATION('density',(#143),#265);
#148=DESCRIPTIVE_REPRESENTATION_ITEM('Standard','Standard');
#149=PROPERTY_DEFINITION('material property','material name',#275);
#150=PROPERTY_DEFINITION('material property','density of part',#275);
#151=DATE_TIME_ROLE('creation_date');
#152=APPLIED_DATE_AND_TIME_ASSIGNMENT(#153,#151,(#275));
#153=DATE_AND_TIME(#154,#155);
#154=CALENDAR_DATE(2019,22,10);
#155=LOCAL_TIME(16,21,15.,#156);
#156=COORDINATED_UNIVERSAL_TIME_OFFSET(0,0,.BEHIND.);
#157=AXIS2_PLACEMENT_3D('placement',#226,#179,#180);
#158=AXIS2_PLACEMENT_3D('',#227,#181,#182);
#159=AXIS2_PLACEMENT_3D('',#230,#183,#184);
#160=AXIS2_PLACEMENT_3D('',#231,#185,#186);
#161=AXIS2_PLACEMENT_3D('',#234,#188,#189);
#162=AXIS2_PLACEMENT_3D('',#235,#190,#191);
#163=AXIS2_PLACEMENT_3D('',#236,#192,#193);
#164=AXIS2_PLACEMENT_3D('',#238,#194,#195);
#165=AXIS2_PLACEMENT_3D('',#239,#196,#197);
#166=AXIS2_PLACEMENT_3D('',#242,#198,#199);
#167=AXIS2_PLACEMENT_3D('',#243,#200,#201);
#168=AXIS2_PLACEMENT_3D('',#245,#202,#203);
#169=AXIS2_PLACEMENT_3D('',#247,#204,#205);
#170=AXIS2_PLACEMENT_3D('',#248,#206,#207);
#171=AXIS2_PLACEMENT_3D('',#249,#208,#209);
#172=AXIS2_PLACEMENT_3D('',#252,#210,#211);
#173=AXIS2_PLACEMENT_3D('',#253,#212,#213);
#174=AXIS2_PLACEMENT_3D('',#257,#215,#216);
#175=AXIS2_PLACEMENT_3D('',#258,#217,#218);
#176=AXIS2_PLACEMENT_3D('',#259,#219,#220);
#177=AXIS2_PLACEMENT_3D('',#261,#222,#223);
#178=AXIS2_PLACEMENT_3D('',#262,#224,#225);
#179=DIRECTION('axis',(0.,0.,1.));
#180=DIRECTION('refdir',(1.,0.,0.));
#181=DIRECTION('center_axis',(4.93432455388958E-17,-1.,-2.22044604925031E-16));
#182=DIRECTION('ref_axis',(-1.,-4.93432455388958E-17,-4.79342563936377E-33));
#183=DIRECTION('center_axis',(2.77555756156289E-17,-1.,-2.22044604925031E-16));
#184=DIRECTION('ref_axis',(-6.84227765783602E-49,2.22044604925031E-16,-1.));
#185=DIRECTION('center_axis',(2.77555756156289E-17,-1.,-2.22044604925031E-16));
#186=DIRECTION('ref_axis',(-6.84227765783602E-49,2.22044604925031E-16,-1.));
#187=DIRECTION('',(-4.93432455388958E-17,1.,2.22044604925031E-16));
#188=DIRECTION('center_axis',(2.77555756156289E-17,-1.,-2.22044604925031E-16));
#189=DIRECTION('ref_axis',(-1.,-2.77555756156289E-17,0.));
#190=DIRECTION('center_axis',(-2.77555756156289E-17,1.,2.22044604925031E-16));
#191=DIRECTION('ref_axis',(-1.,-2.77555756156289E-17,-6.16297582203915E-33));
#192=DIRECTION('center_axis',(2.77555756156289E-17,-1.,-2.22044604925031E-16));
#193=DIRECTION('ref_axis',(0.,2.22044604925031E-16,-1.));
#194=DIRECTION('center_axis',(2.77555756156288E-17,-1.,-2.22044604925031E-16));
#195=DIRECTION('ref_axis',(-5.47382212626882E-48,-2.22044604925031E-16,
1.));
#196=DIRECTION('center_axis',(2.77555756156288E-17,-1.,-2.22044604925031E-16));
#197=DIRECTION('ref_axis',(0.,-2.22044604925031E-16,1.));
#198=DIRECTION('center_axis',(2.77555756156288E-17,-1.,-2.22044604925031E-16));
#199=DIRECTION('ref_axis',(-5.47382212626882E-48,-2.22044604925031E-16,
1.));
#200=DIRECTION('center_axis',(2.77555756156288E-17,-1.,-2.22044604925031E-16));
#201=DIRECTION('ref_axis',(-5.47382212626882E-48,-2.22044604925031E-16,
1.));
#202=DIRECTION('center_axis',(-1.,-2.77555756156288E-17,-1.22464679914735E-16));
#203=DIRECTION('ref_axis',(1.22464679914735E-16,2.25514051876985E-16,-1.));
#204=DIRECTION('center_axis',(-2.77555756156288E-17,1.,2.22044604925031E-16));
#205=DIRECTION('ref_axis',(-5.47382212626882E-48,-2.22044604925031E-16,
1.));
#206=DIRECTION('center_axis',(-2.77555756156288E-17,1.,2.22044604925031E-16));
#207=DIRECTION('ref_axis',(-5.47382212626882E-48,-2.22044604925031E-16,
1.));
#208=DIRECTION('center_axis',(-2.77555756156288E-17,1.,2.22044604925031E-16));
#209=DIRECTION('ref_axis',(5.47382212626882E-48,2.22044604925031E-16,-1.));
#210=DIRECTION('center_axis',(-2.77555756156288E-17,1.,2.22044604925031E-16));
#211=DIRECTION('ref_axis',(-5.47382212626882E-48,-2.22044604925031E-16,
1.));
#212=DIRECTION('center_axis',(-2.77555756156288E-17,1.,2.22044604925031E-16));
#213=DIRECTION('ref_axis',(-5.47382212626882E-48,-2.22044604925031E-16,
1.));
#214=DIRECTION('',(-6.69694498900022E-17,-0.707106781186548,-0.707106781186547));
#215=DIRECTION('center_axis',(2.77555756156288E-17,-1.,-2.22044604925031E-16));
#216=DIRECTION('ref_axis',(-5.47382212626882E-48,-2.22044604925031E-16,
1.));
#217=DIRECTION('center_axis',(2.77555756156288E-17,-1.,-2.22044604925031E-16));
#218=DIRECTION('ref_axis',(-5.47382212626882E-48,-2.22044604925031E-16,
1.));
#219=DIRECTION('center_axis',(-2.77555756156288E-17,1.,2.22044604925031E-16));
#220=DIRECTION('ref_axis',(5.47382212626882E-48,2.22044604925031E-16,-1.));
#221=DIRECTION('',(2.77555756156288E-17,-1.,-2.22044604925031E-16));
#222=DIRECTION('center_axis',(2.77555756156288E-17,-1.,-2.22044604925031E-16));
#223=DIRECTION('ref_axis',(0.,-2.22044604925031E-16,1.));
#224=DIRECTION('center_axis',(2.77555756156288E-17,-1.,-2.22044604925031E-16));
#225=DIRECTION('ref_axis',(0.,-2.22044604925031E-16,1.));
#226=CARTESIAN_POINT('',(0.,0.,0.));
#227=CARTESIAN_POINT('Origin',(-4.16333634234434E-16,15.,3.33066907387547E-15));
#228=CARTESIAN_POINT('',(6.10622663543846E-17,2.22044604925031E-15,-10.));
#229=CARTESIAN_POINT('',(10.,0.,1.22464679914736E-15));
#230=CARTESIAN_POINT('Origin',(6.10622663543846E-17,0.,-4.88498130835069E-16));
#231=CARTESIAN_POINT('Origin',(6.10622663543846E-17,0.,-4.88498130835069E-16));
#232=CARTESIAN_POINT('',(10.,20.,3.21624529935326E-15));
#233=CARTESIAN_POINT('',(10.,15.,4.55531587302282E-15));
#234=CARTESIAN_POINT('Origin',(-5.55111512312578E-16,20.,4.44089209850063E-15));
#235=CARTESIAN_POINT('Origin',(4.36775924553651E-16,20.,3.69754381965979E-15));
#236=CARTESIAN_POINT('Origin',(6.10622663543846E-17,0.,-4.88498130835069E-16));
#237=CARTESIAN_POINT('',(6.10622663543835E-17,1.94289029309402E-15,-8.25));
#238=CARTESIAN_POINT('Origin',(6.10622663543835E-17,0.,-4.88498130835069E-16));
#239=CARTESIAN_POINT('Origin',(7.49400541621979E-17,-0.5,-5.99520433297584E-16));
#240=CARTESIAN_POINT('',(-2.92453985582008E-16,-0.5,3.));
#241=CARTESIAN_POINT('',(4.42334093906404E-16,-0.499999999999999,-3.));
#242=CARTESIAN_POINT('Origin',(7.49400541621979E-17,-0.5,-5.99520433297584E-16));
#243=CARTESIAN_POINT('Origin',(7.49400541621979E-17,-0.5,-5.99520433297584E-16));
#244=CARTESIAN_POINT('',(4.89688646055957E-16,7.70217223333702E-16,-3.5));
#245=CARTESIAN_POINT('Origin',(5.03566433863772E-16,-0.499999999999999,
-3.5));
#246=CARTESIAN_POINT('',(6.10622663543834E-17,-8.32667268468867E-16,3.5));
#247=CARTESIAN_POINT('Origin',(6.10622663543835E-17,0.,-4.88498130835069E-16));
#248=CARTESIAN_POINT('Origin',(6.10622663543835E-17,0.,-4.88498130835069E-16));
#249=CARTESIAN_POINT('Origin',(3.38618022510672E-16,-10.,-2.70894418008538E-15));
#250=CARTESIAN_POINT('',(3.24740234702858E-16,-9.5,-3.));
#251=CARTESIAN_POINT('',(6.92134274447064E-16,-9.5,3.));
#252=CARTESIAN_POINT('Origin',(3.24740234702858E-16,-9.5,-2.59792187762287E-15));
#253=CARTESIAN_POINT('Origin',(3.24740234702858E-16,-9.5,-2.59792187762287E-15));
#254=CARTESIAN_POINT('',(6.4477972229751E-16,-10.,2.5));
#255=CARTESIAN_POINT('',(6.4477972229751E-16,-10.,2.5));
#256=CARTESIAN_POINT('',(3.38618022510672E-16,-10.,-2.5));
#257=CARTESIAN_POINT('Origin',(3.38618022510672E-16,-10.,-2.70894418008538E-15));
#258=CARTESIAN_POINT('Origin',(3.38618022510672E-16,-10.,-2.70894418008538E-15));
#259=CARTESIAN_POINT('Origin',(3.38618022510672E-16,-10.,-2.70894418008538E-15));
#260=CARTESIAN_POINT('',(7.06012062254878E-16,-10.,3.));
#261=CARTESIAN_POINT('Origin',(6.10622663543835E-17,0.,-4.88498130835069E-16));
#262=CARTESIAN_POINT('Origin',(3.38618022510672E-16,-10.,-2.70894418008538E-15));
#263=UNCERTAINTY_MEASURE_WITH_UNIT(LENGTH_MEASURE(0.01),#267,
'DISTANCE_ACCURACY_VALUE',
'Maximum model space distance between geometric entities at asserted c
onnectivities');
#264=UNCERTAINTY_MEASURE_WITH_UNIT(LENGTH_MEASURE(0.01),#267,
'DISTANCE_ACCURACY_VALUE',
'Maximum model space distance between geometric entities at asserted c
onnectivities');
#265=(
GEOMETRIC_REPRESENTATION_CONTEXT(3)
GLOBAL_UNCERTAINTY_ASSIGNED_CONTEXT((#263))
GLOBAL_UNIT_ASSIGNED_CONTEXT((#267,#269,#270))
REPRESENTATION_CONTEXT('','3D')
);
#266=(
GEOMETRIC_REPRESENTATION_CONTEXT(3)
GLOBAL_UNCERTAINTY_ASSIGNED_CONTEXT((#264))
GLOBAL_UNIT_ASSIGNED_CONTEXT((#267,#269,#270))
REPRESENTATION_CONTEXT('','3D')
);
#267=(
LENGTH_UNIT()
NAMED_UNIT(*)
SI_UNIT(.MILLI.,.METRE.)
);
#268=(
LENGTH_UNIT()
NAMED_UNIT(*)
SI_UNIT(.CENTI.,.METRE.)
);
#269=(
NAMED_UNIT(*)
PLANE_ANGLE_UNIT()
SI_UNIT($,.RADIAN.)
);
#270=(
NAMED_UNIT(*)
SI_UNIT($,.STERADIAN.)
SOLID_ANGLE_UNIT()
);
#271=SHAPE_DEFINITION_REPRESENTATION(#272,#273);
#272=PRODUCT_DEFINITION_SHAPE('',$,#275);
#273=SHAPE_REPRESENTATION('',(#157),#265);
#274=PRODUCT_DEFINITION_CONTEXT('part definition',#279,'design');
#275=PRODUCT_DEFINITION('402510462','402510462 Anschlagpuffer 20x20',#276,
#274);
#276=PRODUCT_DEFINITION_FORMATION('',$,#281);
#277=PRODUCT_RELATED_PRODUCT_CATEGORY('402510462 Anschlagpuffer 20x20',
'402510462 Anschlagpuffer 20x20',(#281));
#278=APPLICATION_PROTOCOL_DEFINITION('international standard',
'automotive_design',2009,#279);
#279=APPLICATION_CONTEXT(
'Core Data for Automotive Mechanical Design Process');
#280=PRODUCT_CONTEXT('part definition',#279,'mechanical');
#281=PRODUCT('402510462','402510462 Anschlagpuffer 20x20',
'Anschlagpuffer 20x20',(#280));
#282=PRESENTATION_STYLE_ASSIGNMENT((#285));
#283=PRESENTATION_STYLE_ASSIGNMENT((#286));
#284=PRESENTATION_STYLE_ASSIGNMENT((#287));
#285=SURFACE_STYLE_USAGE(.BOTH.,#294);
#286=SURFACE_STYLE_USAGE(.BOTH.,#295);
#287=SURFACE_STYLE_USAGE(.BOTH.,#296);
#288=SURFACE_STYLE_RENDERING_WITH_PROPERTIES($,#306,(#291));
#289=SURFACE_STYLE_RENDERING_WITH_PROPERTIES($,#307,(#292));
#290=SURFACE_STYLE_RENDERING_WITH_PROPERTIES($,#308,(#293));
#291=SURFACE_STYLE_TRANSPARENT(1.);
#292=SURFACE_STYLE_TRANSPARENT(1.);
#293=SURFACE_STYLE_TRANSPARENT(1.);
#294=SURFACE_SIDE_STYLE('',(#297,#288));
#295=SURFACE_SIDE_STYLE('',(#298,#289));
#296=SURFACE_SIDE_STYLE('',(#299,#290));
#297=SURFACE_STYLE_FILL_AREA(#300);
#298=SURFACE_STYLE_FILL_AREA(#301);
#299=SURFACE_STYLE_FILL_AREA(#302);
#300=FILL_AREA_STYLE('',(#303));
#301=FILL_AREA_STYLE('',(#304));
#302=FILL_AREA_STYLE('',(#305));
#303=FILL_AREA_STYLE_COLOUR('',#306);
#304=FILL_AREA_STYLE_COLOUR('',#307);
#305=FILL_AREA_STYLE_COLOUR('',#308);
#306=COLOUR_RGB('',0.749019607843137,0.749019607843137,0.749019607843137);
#307=COLOUR_RGB('',0.,0.,0.);
#308=COLOUR_RGB('',0.87843137254902,0.874509803921569,0.858823529411765);
ENDSEC;
END-ISO-10303-21;
